Metin Boyutu:
Dm       Bb       A          Dm
Hasret vuruyor gecenin koynunda
Gm       Bb       A
Anılar vuruyor gözyaşlarıma
Dm       Bb       A          Dm
Çılgın bulutlar dönüyor başımda
Gm       Bb       A
Uykusuz geceler kapımda
           Gm            Bb
Yıkılsa dünya, kıyamet kopsa   (Gm ve Bb 3 vuruş)
                A                A7
Yine de vazgeçmem ölürüm derdimden
Dm              A               Dm
Karbeyazdır ölüm, ellerinden gülüm
Dm              A               Dm
Yine yoksun diye, düşmanım her güne 
Dm      Bb  A   Gm                A
Dursun dünya aaaaaa dönmesin sensiz
A          Bb    A      Gm
Yaşatmasın ooooo ooooo  ooooofff
          A  Bb  A
Allah'ım sensiz...
Dm              A               Dm
Karbeyazdır ölüm, ellerinden gülüm
Dm              A               Dm
Yine yoksun diye, düşmanım her güne 
Ara Solo :
Karbeyazdır ölüm
E----------------------
B-4-4-4-4-5-4-5-4-5-3-4
G----------------------
D----------------------
A----------------------
E----------------------
Ellerinden gülüm
E----------------------
B-4-4-4-4-5-4-5-4-5-7-4
G----------------------
D----------------------
A----------------------
E----------------------
Yine yoksun diye
E----------------------
B-4-4-4-4-5-4-5-4-5-3-4
G----------------------
D----------------------
A----------------------
E----------------------
Dursun dünyaaa dönmesin sensiz
E--------------
B-4-5-7-5-4-2-4
G--------------
D--------------
A--------------
E--------------

Kerim Tekin Gitar Akorları

Akor, Gitar Akorları, Akor Merkezi, Akorlar

Bir Cevap Yazın

E-posta hesabınız yayımlanmayacak. Gerekli alanlar * ile işaretlenmişlerdir